[ New messages · Members · Forum rules · Search · RSS ]
  • Page 1 of 1
  • 1
Forum moderator: BlueTiger  
Forum » General Talk » Anime Room » Animiztah (Post anime chords,tabs and lyrics)
Animiztah
BlueTigerDate: Monday, 2009-08-17, 2:30 AM | Message # 1
Major general
Group: Administrators
Messages: 420
Awards: 1
Reputation: 4
Status: Offline
This is a tab for the second opening (the
version that is about 1:30 sec long)
Good power chord stuff here.
If it is easier for you to play, for the
D# power chord you can play
-
-
-
-6 instead of and 4 instead of etc etc.
-4 11 2 9
- 9 7

CHORDS
----------- ------------------- ---------------- --------
----Intro-- -----Verse--------- --Prechorus----- --------
--9--6--4-- --9---------------- --6-------9--8-- --------
-11--9--7-- --9------11--9--7-- --6-6--7--9--8-- --7--6--
-11--9--7-- --7------11--9--7-- --4-6--7--7--6-- --7--6--
--9--7--5-- ----------9--7--5-- ----4--5-------- --5--4--
C# B A E C# B A c# G# A E D# A G#

------------------ -----------
-Chorus----------- -----------
--9--------------- -----------
--9--9--11--6--7-- --7--6--2--
--7--9--11--6--7-- --7--6--2--
-----7---9--4--5-- --5--4--0--
E B C# G# A A G# E

Riff before the Chorus
-------------------------------------
-------------------------------------
------------------------------------- ×2
------0-----------6-6-6-6------------
-2--2---4-2-------4-4-4-4-4-7-7-7-7--
-0----------5-4-------------5-5-5-5--

Outro
------0-----------------------------------
--------0---------------------------------
----------1--6-6-6-6-6-6-4-4-4-4-4-4-4-2--
-2--2--------6-6-6-6-6-6-4-4-4-4-4-4-4-2--
-2--2--------4-4-4-4-4-4-2-2-2-2-2-2-2-0--
-0--0-------------------------------------

Intro: C# B A
Verse: E C# B A
E C# B A
Pre Chorus: C# G# A E D#
C# G# (A G# A G# A G# ×2)
Chorus: E B C# G# A
E B C# G# (A G# E ×4)

order:
Intro
Verse
Prechorus
Riff before Chorus
Chorus
Outro

E D#
fumikomuze akuseru kake hiki wa naisa sou dayo

B A
youru wo nukeru

E D#
nejikomu sa saigo ni sashihiki zero sa sou dayo

B A
hibi wo kezuru

c# G# A E D#
kokoro wo sotto hiraite gyutto hiki yosetara

c# G# (A G# A G# A G# ×2)
todokuyo kitto tsutau yo motto sa aa

E B
iki isoide shiboritotte

C# G# A
motsureru ashi dakedo mae yori zutto sou tokue

E B
ubaitotte tsukandatte

C# G#
kimi ja nai nara imi was naniosa

A (A G# E ×4)
dakara haruka kanata

Riffs exlusive to the Full version (the 4:05 version)
bass intro riff

------------------
------------------
------------------
-0-0-0-2-0-0-5-4--

Intro
------------------------------
-5-5---5-5- --5-5--5-5-----------------
-4-4---4-4---4-4--4-4-----------------
-2-2---2-2---2-2--2-2-----------------
------------------------------
- -----------------------------

gtr1
----------
----------
-6--4--2--
-6--4--2--
-4--2--0--
----------

gtr2
-------0--4--2--
- ---4--2--2--2--
-6--4--2--2--2--
-------2--2--2--
-4--2--0--0--0--
----------------

Last Riff
-------------------0--
-------------------5--
-------------------4--
-------------------2--
---6---------6--------
-6-4-7-9---6-4 -7------
-4---5-7---4---5------


One kills a man, one is an assassin; one kills millions, one is a conqueror; one kills everybody, one is a god.

 
BlueTigerDate: Thursday, 2009-09-03, 7:20 PM | Message # 2
Major general
Group: Administrators
Messages: 420
Awards: 1
Reputation: 4
Status: Offline
Final Fantasy VIII- Eyes On Me

S = Slide
H = Hammer on
P = Pull off

Intro tab:

e |--12--------------------|--12----------------14--|
B |-------12--13--10-------|-------12-13--10--------|
G |------------------------|------------------------|
D |------------------------|------------------------|
A |------------------------|------------------------|
E |------------------------|------------------------|

Music Starts:

C Am
Whenever sang my songs
F G
On the stage, on my own
C Em
Whenever said my words
F G
wishing they would be heard
Am Em
I saw you smiling at me
F C
was it real or just my fantasy
Bb Am
you'd always be there in the corner
F G
of this tiny little bar
C Am
My last night here for you
F G
Same old songs, just once more
C Em
My last night here with you?
F G
Maybe yes, maybe no
Am Em
I kind of liked it your way
F G
how you shyly placed your eyes on me
C G
Did you ever know?
Dm7 C C7
That I had mine on you.
F
Darling, so there you are
C
with that look on your face
Bb G
as if you're never hurt
C C7
as if you're never down
F
Shall I be the one for you
Em A
who pinches you softly but sure
F
if frown is shown then
G F C
I will know that you are no dreamer

Flute Solo Part:

e |0-------3------3s5------|----7---5---3---3---0---|
B |------------------------|------------------------|
G |------------------------|------------------------|
D |------------------------|------------------------|
A |------------------------|------------------------|
E |------------------------|------------------------|

e |------------------------|--0-----------------0---|
B |--3h5p3---1---------1---|-------3---1------------|
G |---------------2--------|----------------2-2-----|
D |------------------------|------------------------|
A |------------------------|------------------------|
E |------------------------|------------------------|

e |0--------3------3s5-----|--12---10---8---10------|
B |------------------------|---------------------8--|
G |------------------------|------------------------|
D |------------------------|------------------------|
A |------------------------|------------------------|
E |------------------------|------------------------|

e |------------------------|------------------------|
B |-----6---5---8-----6---5|---1---1----3h5p3-------|
G |------------------------|------------------------|
D |------------------------|------------------------|
A |------------------------|------------------------|
E |------------------------|------------------------|

Am Em
So let me come to you
F G
Close as I wanna be
C Em
Close enough for me
F G
To feel your heart beating fast
Am Em
And stay there as I whisper
F G
How I loved your peaceful eyes on me
C G
Did you ever know?
Dm7 C C7
That I had mine on you.
F
Darling so share with me
C
Your love if you have enough
Bb G
Your tears if you're holding back
C C7
or pain if that's what it is
F
How can I let you know
Em A
I'm more then the dress and the voice
F
just reach me out then
G F C
You will know that you are not dreaming
F
Darling, so there you are
C
with that look on your face
Bb G
as if you're never hurt
C C7
as if you're never down
F
Shall I be the one for you
Em A
who pinches you softly but sure
F
if frown is shown then
G F C
I will know that you are no dreamer


One kills a man, one is an assassin; one kills millions, one is a conqueror; one kills everybody, one is a god.

 
BlueTigerDate: Sunday, 2009-09-06, 1:47 PM | Message # 3
Major general
Group: Administrators
Messages: 420
Awards: 1
Reputation: 4
Status: Offline
Hikari - Utada Hikaru - Kingdom Hearts theme

capo 3

C
donna tokidatte
Em
tada hitoride
Am
unmei wasurete
G
ikitekitanoni
C G C
totsuzen no hikari no naka megasameru
Am
mayonakani

Am
shizukani
G
deguchini tatte
Am G
kurayami ni hikari wo ute

F
imadoki yakusoku nante
Em Am
fuan ni saseru dakekana
Am
negai wo kuchi ni shitaidake sagasou
C Em Am Em
kunimo shoukai suruyo kitto umaku ikuyo

C
donna tokidatte
Em
zutto futaride
Am
donna tokidatte
G
soba ni irukara
C G C
kimi to iu hikari ga watashi wo mitsukeru
Am
mayonakani

Am
urusai
G
toori ni haitte
Am G
unmei no kamen wo tore

F
saki wo mitooshi suginante
Em Am
imi no nai koto ha yamete
Am
kyou ha hoshii monomo tabeyouyo
C Em Am
mirai wo zutto sakidayo
Em
bokunimo wakaranai

C
kansei sasenaide
Em
motto yokushite
Am
one scene zutsu totte
G
ikeba iikara
C G C
kimi to iu hikari ga watashi no scenario
Am
utsushidasu

C Em
motto hanasouyo
Am G
mokuzen no ashita no koto mo
C G C
terebi keshite watashi no koto dake wo
Am
miteiteyo

C
donnani yokutatte
Em
shinji kirenaine
Am
sonna toki datte
G
soba ni irukara
C G C
kimi to iu hikari ga watashi wo mitsukeru
Am
mayonakani

C Em
motto hanasouyo
Am G
mokuzen no ashita no koto mo
C G C
terebi keshite watashi no koto dake wo
Am
miteiteyo

C Em
motto hanasouyo
Am G
mokuzen no ashita no koto mo
C G C
terebi keshite watashi no koto dake wo
Am
miteiteyo

outro
C Em Am G

flute


One kills a man, one is an assassin; one kills millions, one is a conqueror; one kills everybody, one is a god.

 
BlueTigerDate: Wednesday, 2010-02-10, 8:44 AM | Message # 4
Major general
Group: Administrators
Messages: 420
Awards: 1
Reputation: 4
Status: Offline
Small of Two Pieces

Xeno Gears ending theme

A E F#m D
e-o-o--2--2-
B-2-o--4--3-
G-2-1--4--2-
D-2-2--2--0-
A-o-2--2--x-
E-x-o--2--x-

E
Run through the cold of the night
F#m D
As passion burns in your heart
A E F#m D
Ready to fight, a knife held close by your side
A E
Like a proud wolf alone in the dark
F#m D
With eyes that watch the world
A E F#m A
And my name like a shadow on the face of the moon

[CHORUS]
A E F#m
Broken mirror, a million shades of light
D A
The old echo fades away
E A
But just you and I
E F#m
Can find the answer and then
A E
We can run to the end of the world
F#m E
We can run to the end
A
Of the world

A E
Cold fire clenched to my heart
F#m D
In the blue of night
A E F#m D
Torn by this pain, I'll paint your name in sound
A
And the girl of the dawn
E F#m D
With eyes of blue and angel wings
A E A
The songs of the season are her only crown

[CHORUS]

A E
We met in the mist of morning
F#m D
And parted deep in the night
A F#m A
Broken sword and shield and tears that never fall
A
But run through the heart
E F#m D
Washed away by the darkest water
A E A
The world is peaceful and still

[CHORUS]

F#m E
Run to the end
A
of the world


One kills a man, one is an assassin; one kills millions, one is a conqueror; one kills everybody, one is a god.

 
Forum » General Talk » Anime Room » Animiztah (Post anime chords,tabs and lyrics)
  • Page 1 of 1
  • 1
Search:

Copyright Warwolves © 2018